  0
SECTION
  2
HEADER
  9
$ACADVER
  1
AC1015
  9
$ACADMAINTVER
 70
     6
  9
$DWGCODEPAGE
  3
ANSI_1254
  9
$INSBASE
 10
0.0
 20
0.0
 30
0.0
  9
$EXTMIN
 10
0.0
 20
0.0
 30
0.0
  9
$EXTMAX
 10
279.4
 20
215.9
 30
0.0
  9
$LIMMIN
 10
0.0
 20
0.0
  9
$LIMMAX
 10
279.4
 20
215.9
  9
$ORTHOMODE
 70
     0
  9
$REGENMODE
 70
     1
  9
$FILLMODE
 70
     1
  9
$QTEXTMODE
 70
     0
  9
$MIRRTEXT
 70
     1
  9
$LTSCALE
 40
1.0
  9
$ATTMODE
 70
     1
  9
$TEXTSIZE
 40
3.5
  9
$TRACEWID
 40
1.0
  9
$TEXTSTYLE
  7
Standard
  9
$CLAYER
  8
0
  9
$CELTYPE
  6
ByLayer
  9
$CECOLOR
 62
   256
  9
$CELTSCALE
 40
1.0
  9
$DISPSILH
 70
     0
  9
$DIMSCALE
 40
1.0
  9
$DIMASZ
 40
3.5
  9
$DIMEXO
 40
1.0
  9
$DIMDLI
 40
3.75
  9
$DIMRND
 40
0.0
  9
$DIMDLE
 40
0.0
  9
$DIMEXE
 40
1.0
  9
$DIMTP
 40
0.0
  9
$DIMTM
 40
0.0
  9
$DIMTXT
 40
3.5
  9
$DIMCEN
 40
2.5
  9
$DIMTSZ
 40
0.0
  9
$DIMTOL
 70
     0
  9
$DIMLIM
 70
     0
  9
$DIMTIH
 70
     1
  9
$DIMTOH
 70
     1
  9
$DIMSE1
 70
     0
  9
$DIMSE2
 70
     0
  9
$DIMTAD
 70
     1
  9
$DIMZIN
 70
     0
  9
$DIMBLK
  1

  9
$DIMASO
 70
     1
  9
$DIMSHO
 70
     1
  9
$DIMPOST
  1

  9
$DIMAPOST
  1

  9
$DIMALT
 70
     0
  9
$DIMALTD
 70
     3
  9
$DIMALTF
 40
0.0393700787
  9
$DIMLFAC
 40
1.0
  9
$DIMTOFL
 70
     1
  9
$DIMTVP
 40
0.0
  9
$DIMTIX
 70
     0
  9
$DIMSOXD
 70
     0
  9
$DIMSAH
 70
     0
  9
$DIMBLK1
  1

  9
$DIMBLK2
  1

  9
$DIMSTYLE
  2
ISO-25
  9
$DIMCLRD
 70
     0
  9
$DIMCLRE
 70
     0
  9
$DIMCLRT
 70
     0
  9
$DIMTFAC
 40
1.0
  9
$DIMGAP
 40
1.524
  9
$DIMJUST
 70
     0
  9
$DIMSD1
 70
     0
  9
$DIMSD2
 70
     0
  9
$DIMTOLJ
 70
     0
  9
$DIMTZIN
 70
     0
  9
$DIMALTZ
 70
     0
  9
$DIMALTTZ
 70
     0
  9
$DIMUPT
 70
     0
  9
$DIMDEC
 70
     2
  9
$DIMTDEC
 70
     2
  9
$DIMALTU
 70
     2
  9
$DIMALTTD
 70
     3
  9
$DIMTXSTY
  7
Standard
  9
$DIMAUNIT
 70
     0
  9
$DIMADEC
 70
     2
  9
$DIMALTRND
 40
0.0
  9
$DIMAZIN
 70
     0
  9
$DIMDSEP
 70
    44
  9
$DIMATFIT
 70
     3
  9
$DIMFRAC
 70
     0
  9
$DIMLDRBLK
  1

  9
$DIMLUNIT
 70
     2
  9
$DIMLWD
 70
    -2
  9
$DIMLWE
 70
    -2
  9
$DIMTMOVE
 70
     0
  9
$LUNITS
 70
     2
  9
$LUPREC
 70
     2
  9
$SKETCHINC
 40
1.0
  9
$FILLETRAD
 40
10.0
  9
$AUNITS
 70
     0
  9
$AUPREC
 70
     2
  9
$MENU
  1
.
  9
$ELEVATION
 40
0.0
  9
$PELEVATION
 40
0.0
  9
$THICKNESS
 40
0.0
  9
$LIMCHECK
 70
     0
  9
$CHAMFERA
 40
0.0
  9
$CHAMFERB
 40
0.0
  9
$CHAMFERC
 40
0.0
  9
$CHAMFERD
 40
0.0
  9
$SKPOLY
 70
     0
  9
$TDCREATE
 40
2458985.698477986
  9
$TDUCREATE
 40
2458985.573477986
  9
$TDUPDATE
 40
2458985.698478241
  9
$TDUUPDATE
 40
2458985.573478241
  9
$TDINDWG
 40
0.0000000116
  9
$TDUSRTIMER
 40
0.0000000116
  9
$USRTIMER
 70
     1
  9
$ANGBASE
 50
0.0
  9
$ANGDIR
 70
     0
  9
$PDMODE
 70
     0
  9
$PDSIZE
 40
-1.0
  9
$PLINEWID
 40
0.0
  9
$SPLFRAME
 70
     0
  9
$SPLINETYPE
 70
     6
  9
$SPLINESEGS
 70
     8
  9
$HANDSEED
  5
EA
  9
$SURFTAB1
 70
     6
  9
$SURFTAB2
 70
     6
  9
$SURFTYPE
 70
     6
  9
$SURFU
 70
     6
  9
$SURFV
 70
     6
  9
$UCSBASE
  2

  9
$UCSNAME
  2

  9
$UCSORG
 10
0.0
 20
0.0
 30
0.0
  9
$UCSXDIR
 10
1.0
 20
0.0
 30
0.0
  9
$UCSYDIR
 10
0.0
 20
1.0
 30
0.0
  9
$UCSORTHOREF
  2

  9
$UCSORTHOVIEW
 70
     0
  9
$UCSORGTOP
 10
0.0
 20
0.0
 30
0.0
  9
$UCSORGBOTTOM
 10
0.0
 20
0.0
 30
0.0
  9
$UCSORGLEFT
 10
0.0
 20
0.0
 30
0.0
  9
$UCSORGRIGHT
 10
0.0
 20
0.0
 30
0.0
  9
$UCSORGFRONT
 10
0.0
 20
0.0
 30
0.0
  9
$UCSORGBACK
 10
0.0
 20
0.0
 30
0.0
  9
$PUCSBASE
  2

  9
$PUCSNAME
  2

  9
$PUCSORG
 10
0.0
 20
0.0
 30
0.0
  9
$PUCSXDIR
 10
1.0
 20
0.0
 30
0.0
  9
$PUCSYDIR
 10
0.0
 20
1.0
 30
0.0
  9
$PUCSORTHOREF
  2

  9
$PUCSORTHOVIEW
 70
     0
  9
$PUCSORGTOP
 10
0.0
 20
0.0
 30
0.0
  9
$PUCSORGBOTTOM
 10
0.0
 20
0.0
 30
0.0
  9
$PUCSORGLEFT
 10
0.0
 20
0.0
 30
0.0
  9
$PUCSORGRIGHT
 10
0.0
 20
0.0
 30
0.0
  9
$PUCSORGFRONT
 10
0.0
 20
0.0
 30
0.0
  9
$PUCSORGBACK
 10
0.0
 20
0.0
 30
0.0
  9
$USERI1
 70
     0
  9
$USERI2
 70
     0
  9
$USERI3
 70
     0
  9
$USERI4
 70
     0
  9
$USERI5
 70
     0
  9
$USERR1
 40
0.0
  9
$USERR2
 40
0.0
  9
$USERR3
 40
0.0
  9
$USERR4
 40
0.0
  9
$USERR5
 40
0.0
  9
$WORLDVIEW
 70
     1
  9
$SHADEDGE
 70
     3
  9
$SHADEDIF
 70
    70
  9
$TILEMODE
 70
     1
  9
$MAXACTVP
 70
    64
  9
$PINSBASE
 10
0.0
 20
0.0
 30
0.0
  9
$PLIMCHECK
 70
     0
  9
$PEXTMIN
 10
1.0000000000E+20
 20
1.0000000000E+20
 30
1.0000000000E+20
  9
$PEXTMAX
 10
-1.0000000000E+20
 20
-1.0000000000E+20
 30
-1.0000000000E+20
  9
$PLIMMIN
 10
0.0
 20
0.0
  9
$PLIMMAX
 10
420.0
 20
297.0
  9
$UNITMODE
 70
     0
  9
$VISRETAIN
 70
     1
  9
$PLINEGEN
 70
     0
  9
$PSLTSCALE
 70
     1
  9
$TREEDEPTH
 70
  3020
  9
$CMLSTYLE
  2
Standard
  9
$CMLJUST
 70
     0
  9
$CMLSCALE
 40
20.0
  9
$PROXYGRAPHICS
 70
     1
  9
$MEASUREMENT
 70
     1
  9
$CELWEIGHT
370
    -1
  9
$ENDCAPS
280
     0
  9
$JOINSTYLE
280
     0
  9
$LWDISPLAY
290
     1
  9
$INSUNITS
 70
     4
  9
$HYPERLINKBASE
  1

  9
$STYLESHEET
  1

  9
$XEDIT
290
     1
  9
$CEPSNTYPE
380
     0
  9
$PSTYLEMODE
290
     1
  9
$FINGERPRINTGUID
  2
{722fd971-9e28-4e91-9423-16fcd5f03187}
  9
$VERSIONGUID
  2
{FAEB1C32-E019-11D5-929B-00C0DF256EC4}
  9
$EXTNAMES
290
     1
  9
$PSVPSCALE
 40
0.0
  9
$OLESTARTUP
290
     0
  0
ENDSEC
  0
SECTION
  2
CLASSES
  0
CLASS
  1
ACDBDICTIONARYWDFLT
  2
AcDbDictionaryWithDefault
  3
ObjectDBX Classes
 90
        0
280
     0
281
     0
  0
CLASS
  1
VISUALSTYLE
  2
AcDbVisualStyle
  3
ObjectDBX Classes
 90
     4095
280
     0
281
     0
  0
CLASS
  1
MATERIAL
  2
AcDbMaterial
  3
ObjectDBX Classes
 90
     1153
280
     0
281
     0
  0
CLASS
  1
SCALE
  2
AcDbScale
  3
ObjectDBX Classes
 90
     1153
280
     0
281
     0
  0
CLASS
  1
TABLESTYLE
  2
AcDbTableStyle
  3
ObjectDBX Classes
 90
     4095
280
     0
281
     0
  0
CLASS
  1
MLEADERSTYLE
  2
AcDbMLeaderStyle
  3
ACDB_MLEADERSTYLE_CLASS
 90
     4095
280
     0
281
     0
  0
CLASS
  1
SUN
  2
AcDbSun
  3
SCENEOE
 90
     1153
280
     0
281
     0
  0
CLASS
  1
ACDBPLACEHOLDER
  2
AcDbPlaceHolder
  3
ObjectDBX Classes
 90
        0
280
     0
281
     0
  0
CLASS
  1
LAYOUT
  2
AcDbLayout
  3
ObjectDBX Classes
 90
        0
280
     0
281
     0
  0
ENDSEC
  0
SECTION
  2
TABLES
  0
TABLE
  2
VPORT
  5
8
330
0
100
AcDbSymbolTable
 70
     1
  0
VPORT
  5
29
330
8
100
AcDbSymbolTableRecord
100
AcDbViewportTableRecord
  2
*Active
 70
     0
 10
0.0
 20
0.0
 11
1.0
 21
1.0
 12
139.7
 22
107.95
 13
0.0
 23
0.0
 14
10.0
 24
10.0
 15
10.0
 25
10.0
 16
0.0
 26
0.0
 36
1.0
 17
0.0
 27
0.0
 37
0.0
 40
215.9
 41
1.2941176471
 42
50.0
 43
0.0
 44
0.0
 50
0.0
 51
0.0
 71
     0
 72
  2000
 73
     1
 74
     3
 75
     0
 76
     0
 77
     0
 78
     0
281
     0
 65
     1
110
0.0
120
0.0
130
0.0
111
1.0
121
0.0
131
0.0
112
0.0
122
1.0
132
0.0
 79
     0
146
0.0
  0
ENDTAB
  0
TABLE
  2
LTYPE
  5
5
330
0
100
AcDbSymbolTable
 70
     6
  0
LTYPE
  5
14
330
5
100
AcDbSymbolTableRecord
100
AcDbLinetypeTableRecord
  2
ByBlock
 70
     0
  3

 72
    65
 73
     0
 40
0.0
  0
LTYPE
  5
15
330
5
100
AcDbSymbolTableRecord
100
AcDbLinetypeTableRecord
  2
ByLayer
 70
     0
  3

 72
    65
 73
     0
 40
0.0
  0
LTYPE
  5
16
330
5
100
AcDbSymbolTableRecord
100
AcDbLinetypeTableRecord
  2
Continuous
 70
     0
  3
Solid line
 72
    65
 73
     0
 40
0.0
  0
LTYPE
  5
6E
330
5
100
AcDbSymbolTableRecord
100
AcDbLinetypeTableRecord
  2
HIDDEN
 70
     0
  3
Hidden __ __ __ __ __ __ __ __ __ __ __ __ __ __
 72
    65
 73
     2
 40
1.905
 49
1.27
 74
     0
 49
-0.635
 74
     0
  0
LTYPE
  5
6F
330
5
100
AcDbSymbolTableRecord
100
AcDbLinetypeTableRecord
  2
PHANTOM
 70
     0
  3
Phantom ______  __  __  ______  __  __  ______
 72
    65
 73
     6
 40
12.7
 49
6.35
 74
     0
 49
-1.27
 74
     0
 49
1.27
 74
     0
 49
-1.27
 74
     0
 49
1.27
 74
     0
 49
-1.27
 74
     0
  0
LTYPE
  5
70
330
5
100
AcDbSymbolTableRecord
100
AcDbLinetypeTableRecord
  2
CENTER
 70
     0
  3
Center ____ _ ____ _ ____ _ ____ _ ____ _ ____
 72
    65
 73
     4
 40
10.16
 49
6.35
 74
     0
 49
-1.27
 74
     0
 49
1.27
 74
     0
 49
-1.27
 74
     0
  0
LTYPE
  5
71
330
5
100
AcDbSymbolTableRecord
100
AcDbLinetypeTableRecord
  2
CENTERX2
 70
     0
  3
Center (2x) ________  __  ________  __  _____
 72
    65
 73
     4
 40
20.32
 49
12.7
 74
     0
 49
-2.54
 74
     0
 49
2.54
 74
     0
 49
-2.54
 74
     0
  0
LTYPE
  5
72
330
5
100
AcDbSymbolTableRecord
100
AcDbLinetypeTableRecord
  2
DOT2
 70
     0
  3
Dot (.5x) ........................................
 72
    65
 73
     2
 40
0.635
 49
0.0
 74
     0
 49
-0.635
 74
     0
  0
ENDTAB
  0
TABLE
  2
LAYER
  5
2
330
0
100
AcDbSymbolTable
 70
    17
  0
LAYER
  5
10
330
2
100
AcDbSymbolTableRecord
100
AcDbLayerTableRecord
  2
0
 70
     0
 62
     7
  6
Continuous
370
    -3
390
F
  0
LAYER
  5
73
330
2
100
AcDbSymbolTableRecord
100
AcDbLayerTableRecord
  2
FORMAT
 70
     0
 62
     7
  6
Continuous
370
    -3
390
F
  0
LAYER
  5
74
330
2
100
AcDbSymbolTableRecord
100
AcDbLayerTableRecord
  2
YARDIMCI_GEOMETRI
 70
     0
 62
    -6
  6
Continuous
290
     0
370
    -3
390
F
  0
LAYER
  5
75
330
2
100
AcDbSymbolTableRecord
100
AcDbLayerTableRecord
  2
SAYFA_CERCEVESI
 70
     0
 62
     7
  6
Continuous
370
    25
390
F
  0
LAYER
  5
76
330
2
100
AcDbSymbolTableRecord
100
AcDbLayerTableRecord
  2
ANTET
 70
     0
 62
     7
  6
Continuous
370
    -3
390
F
  0
LAYER
  5
77
330
2
100
AcDbSymbolTableRecord
100
AcDbLayerTableRecord
  2
OLCU
 70
     0
 62
   150
  6
Continuous
370
    -3
390
F
  0
LAYER
  5
78
330
2
100
AcDbSymbolTableRecord
100
AcDbLayerTableRecord
  2
METIN
 70
     0
 62
    96
  6
Continuous
370
    -3
390
F
  0
LAYER
  5
79
330
2
100
AcDbSymbolTableRecord
100
AcDbLayerTableRecord
  2
BALON
 70
     0
 62
     5
  6
Continuous
370
    -3
390
F
  0
LAYER
  5
7A
330
2
100
AcDbSymbolTableRecord
100
AcDbLayerTableRecord
  2
VURGU
 70
     0
 62
     7
  6
Continuous
370
    -3
390
F
  0
LAYER
  5
7B
330
2
100
AcDbSymbolTableRecord
100
AcDbLayerTableRecord
  2
SILIK
 70
     0
 62
     7
  6
Continuous
370
    -3
390
F
  0
LAYER
  5
7C
330
2
100
AcDbSymbolTableRecord
100
AcDbLayerTableRecord
  2
MODEL
 70
     0
 62
     7
  6
Continuous
370
    -3
390
F
  0
LAYER
  5
7D
330
2
100
AcDbSymbolTableRecord
100
AcDbLayerTableRecord
  2
DETAYLANDıRMA
 70
     0
 62
   190
  6
Continuous
370
    -3
390
F
  0
LAYER
  5
7E
330
2
100
AcDbSymbolTableRecord
100
AcDbLayerTableRecord
  2
TOLERANS
 70
     0
 62
   230
  6
Continuous
370
    -3
390
F
  0
LAYER
  5
7F
330
2
100
AcDbSymbolTableRecord
100
AcDbLayerTableRecord
  2
MERKEZ_CIZGILERI
 70
     0
 62
    30
  6
Continuous
370
    -3
390
F
  0
LAYER
  5
80
330
2
100
AcDbSymbolTableRecord
100
AcDbLayerTableRecord
  2
KESIT-DETAY_CIZGILERI
 70
     0
 62
     7
  6
Continuous
370
    -3
390
F
  0
LAYER
  5
81
330
2
100
AcDbSymbolTableRecord
100
AcDbLayerTableRecord
  2
\U+041E\U+0421\U+0415\U+0412\U+042B\U+0415
 70
     0
 62
     7
  6
Continuous
370
    -3
390
F
  0
LAYER
  5
82
330
2
100
AcDbSymbolTableRecord
100
AcDbLayerTableRecord
  2
\U+0412\U+041E\U+0414\U+042F\U+041D\U+042B\U+0415_\U+0417\U+041D\U+0410\U+041A\U+0418
 70
     0
 62
    11
  6
Continuous
370
    -3
390
F
  0
ENDTAB
  0
TABLE
  2
STYLE
  5
3
330
0
100
AcDbSymbolTable
 70
     1
  0
STYLE
  5
11
330
3
100
AcDbSymbolTableRecord
100
AcDbTextStyleTableRecord
  2
Standard
 70
     0
 40
0.0
 41
1.0
 50
0.0
 71
     0
 42
3.5
  3
txt
  4

  0
ENDTAB
  0
TABLE
  2
VIEW
  5
6
330
0
100
AcDbSymbolTable
 70
     0
  0
ENDTAB
  0
TABLE
  2
UCS
  5
7
330
0
100
AcDbSymbolTable
 70
     0
  0
ENDTAB
  0
TABLE
  2
APPID
  5
9
330
0
100
AcDbSymbolTable
 70
     1
  0
APPID
  5
12
330
9
100
AcDbSymbolTableRecord
100
AcDbRegAppTableRecord
  2
ACAD
 70
     0
  0
ENDTAB
  0
TABLE
  2
DIMSTYLE
  5
A
330
0
100
AcDbSymbolTable
 70
     1
100
AcDbDimStyleTable
  0
DIMSTYLE
105
27
330
A
100
AcDbSymbolTableRecord
100
AcDbDimStyleTableRecord
  2
ISO-25
 70
     0
 41
2.5
 42
0.625
 43
3.75
 44
1.25
 73
     0
 74
     0
 77
     1
 78
     8
140
2.5
141
2.5
143
0.0393700787
147
0.625
171
     3
172
     1
178
     0
271
     2
272
     2
274
     3
278
    44
283
     0
284
     8
340
11
  0
ENDTAB
  0
TABLE
  2
BLOCK_RECORD
  5
1
330
0
100
AcDbSymbolTable
 70
     2
  0
BLOCK_RECORD
  5
1F
330
1
100
AcDbSymbolTableRecord
100
AcDbBlockTableRecord
  2
*Model_Space
340
22
  0
BLOCK_RECORD
  5
1B
330
1
100
AcDbSymbolTableRecord
100
AcDbBlockTableRecord
  2
*Paper_Space
340
1E
  0
BLOCK_RECORD
  5
23
330
1
100
AcDbSymbolTableRecord
100
AcDbBlockTableRecord
  2
*Paper_Space0
340
26
  0
BLOCK_RECORD
  5
88
330
1
100
AcDbSymbolTableRecord
100
AcDbBlockTableRecord
  2
SW_CENTERMARKSYMBOL_0
340
0
102
{BLKREFS
331
93
102
}
  0
ENDTAB
  0
ENDSEC
  0
SECTION
  2
BLOCKS
  0
BLOCK
  5
20
330
1F
100
AcDbEntity
  8
0
100
AcDbBlockBegin
  2
*Model_Space
 70
     0
 10
0.0
 20
0.0
 30
0.0
  3
*Model_Space
  1

  0
ENDBLK
  5
21
330
1F
100
AcDbEntity
  8
0
100
AcDbBlockEnd
  0
BLOCK
  5
1C
330
1B
100
AcDbEntity
 67
     1
  8
0
100
AcDbBlockBegin
  2
*Paper_Space
 70
     0
 10
0.0
 20
0.0
 30
0.0
  3
*Paper_Space
  1

  0
ENDBLK
  5
1D
330
1B
100
AcDbEntity
 67
     1
  8
0
100
AcDbBlockEnd
  0
BLOCK
  5
24
330
23
100
AcDbEntity
  8
0
100
AcDbBlockBegin
  2
*Paper_Space0
 70
     0
 10
0.0
 20
0.0
 30
0.0
  3
*Paper_Space0
  1

  0
ENDBLK
  5
25
330
23
100
AcDbEntity
  8
0
100
AcDbBlockEnd
  0
BLOCK
  5
89
330
88
100
AcDbEntity
  8
0
100
AcDbBlockBegin
  2
SW_CENTERMARKSYMBOL_0
 70
     0
 10
0.0
 20
0.0
 30
0.0
  3
SW_CENTERMARKSYMBOL_0
  1

  0
LINE
  5
8B
330
88
100
AcDbEntity
  8
FORMAT
 62
     0
100
AcDbLine
 10
0.0
 20
0.0
 30
0.0
 11
0.0
 21
2.5
 31
0.0
  0
LINE
  5
8C
330
88
100
AcDbEntity
  8
FORMAT
 62
     0
100
AcDbLine
 10
0.0
 20
0.0
 30
0.0
 11
-2.5
 21
0.0
 31
0.0
  0
LINE
  5
8D
330
88
100
AcDbEntity
  8
FORMAT
 62
     0
100
AcDbLine
 10
0.0
 20
0.0
 30
0.0
 11
0.0
 21
-2.5
 31
0.0
  0
LINE
  5
8E
330
88
100
AcDbEntity
  8
FORMAT
 62
     0
100
AcDbLine
 10
0.0
 20
0.0
 30
0.0
 11
2.5
 21
0.0
 31
0.0
  0
LINE
  5
8F
330
88
100
AcDbEntity
  8
FORMAT
 62
     0
100
AcDbLine
 10
0.0
 20
5.0
 30
0.0
 11
0.0
 21
22.5
 31
0.0
  0
LINE
  5
90
330
88
100
AcDbEntity
  8
FORMAT
 62
     0
100
AcDbLine
 10
-5.0
 20
0.0
 30
0.0
 11
-22.5
 21
0.0
 31
0.0
  0
LINE
  5
91
330
88
100
AcDbEntity
  8
FORMAT
 62
     0
100
AcDbLine
 10
0.0
 20
-5.0
 30
0.0
 11
0.0
 21
-22.5
 31
0.0
  0
LINE
  5
92
330
88
100
AcDbEntity
  8
FORMAT
 62
     0
100
AcDbLine
 10
5.0
 20
0.0
 30
0.0
 11
22.5
 21
0.0
 31
0.0
  0
ENDBLK
  5
8A
330
88
100
AcDbEntity
  8
0
100
AcDbBlockEnd
  0
ENDSEC
  0
SECTION
  2
ENTITIES
  0
CIRCLE
  5
83
330
1F
100
AcDbEntity
  8
0
  6
Continuous
 62
     7
370
    25
100
AcDbCircle
 10
139.395004093
 20
107.5851680021
 30
0.0
 40
20.00000000000001
  0
CIRCLE
  5
84
330
1F
100
AcDbEntity
  8
0
  6
Continuous
 62
     7
370
    25
100
AcDbCircle
 10
139.395004093
 20
107.5851680021
 30
0.0
 40
16.30000000000003
  0
CIRCLE
  5
85
330
1F
100
AcDbEntity
  8
0
  6
Continuous
 62
     7
370
    25
100
AcDbCircle
 10
139.395004093
 20
107.5851680021
 30
0.0
 40
16.27103523782927
  0
CIRCLE
  5
86
330
1F
100
AcDbEntity
  8
0
  6
Continuous
 62
     7
370
    25
100
AcDbCircle
 10
139.395004093
 20
107.5851680021
 30
0.0
 40
13.02896476217077
  0
CIRCLE
  5
87
330
1F
100
AcDbEntity
  8
0
  6
Continuous
 62
     7
370
    25
100
AcDbCircle
 10
139.395004093
 20
107.5851680021
 30
0.0
 40
13.00000000000001
  0
INSERT
  5
93
330
1F
100
AcDbEntity
  8
FORMAT
 62
     7
100
AcDbBlockReference
  2
SW_CENTERMARKSYMBOL_0
 10
139.395004093
 20
107.5851680021
 30
0.0
  0
LINE
  5
94
330
1F
100
AcDbEntity
  8
0
  6
Continuous
 62
     7
370
    25
100
AcDbLine
 10
-18.2162048983
 20
127.5851675551
 30
0.0
 11
-67.108412342
 21
127.5851675551
 31
0.0
  0
LINE
  5
95
330
1F
100
AcDbEntity
  8
0
  6
Continuous
 62
     7
370
    25
100
AcDbLine
 10
-67.108412342
 20
87.5851684491
 30
0.0
 11
-18.2162048983
 21
87.5851684491
 31
0.0
  0
ARC
  5
96
330
1F
100
AcDbEntity
  8
0
  6
Continuous
 62
     7
370
    25
100
AcDbCircle
 10
-18.2162045125
 20
125.5851680021
 30
0.0
 40
2.000000000000004
100
AcDbArc
 50
83.829824905
 51
90.0
  0
ARC
  5
97
330
1F
100
AcDbEntity
  8
0
  6
Continuous
 62
     7
370
    25
100
AcDbCircle
 10
-18.2162045125
 20
89.5851680021
 30
0.0
 40
2.000000000000004
100
AcDbArc
 50
270.0
 51
276.170175095
  0
LINE
  5
98
330
1F
100
AcDbEntity
  8
0
  6
Continuous
 62
     7
370
    25
100
AcDbLine
 10
-18.0012407469
 20
87.596754102
 30
0.0
 11
18.7844195647
 21
91.5735815893
 31
0.0
  0
LINE
  5
99
330
1F
100
AcDbEntity
  8
0
  6
Continuous
 62
     7
370
    25
100
AcDbLine
 10
18.7844195647
 20
123.5967544149
 30
0.0
 11
-18.0012407469
 21
127.5735819023
 31
0.0
  0
ARC
  5
9A
330
1F
100
AcDbEntity
  8
0
  6
Continuous
 62
     7
370
    25
100
AcDbCircle
 10
18.9993836194
 20
125.5851680021
 30
0.0
 40
2.000000000000003
100
AcDbArc
 50
263.829824905
 51
270.0
  0
ARC
  5
9B
330
1F
100
AcDbEntity
  8
0
  6
Continuous
 62
     7
370
    25
100
AcDbCircle
 10
18.9993836194
 20
89.5851680021
 30
0.0
 40
2.000000000000014
100
AcDbArc
 50
90.0
 51
96.170175095
  0
LINE
  5
9C
330
1F
100
AcDbEntity
  8
0
  6
Continuous
 62
     7
370
    25
100
AcDbLine
 10
62.8915903402
 20
123.5851687621
 30
0.0
 11
18.9993837161
 21
123.5851687621
 31
0.0
  0
LINE
  5
9D
330
1F
100
AcDbEntity
  8
0
  6
Continuous
 62
     7
370
    25
100
AcDbLine
 10
18.9993837161
 20
91.5851672422
 30
0.0
 11
62.8915903402
 21
91.5851672422
 31
0.0
  0
LINE
  5
9E
330
1F
100
AcDbEntity
  8
0
  6
Continuous
 62
     7
370
    25
100
AcDbLine
 10
-67.108412342
 20
127.5851675551
 30
0.0
 11
-67.108412342
 21
87.5851684491
 31
0.0
  0
LINE
  5
9F
330
1F
100
AcDbEntity
  8
0
  6
Continuous
 62
     7
370
    25
100
AcDbLine
 10
62.8915903402
 20
123.5851687621
 30
0.0
 11
62.8915903402
 21
91.5851672422
 31
0.0
  0
LINE
  5
A0
330
1F
100
AcDbEntity
  8
0
  6
Continuous
 62
     1
370
    25
100
AcDbLine
 10
-18.2162048983
 20
127.5851675551
 30
0.0
 11
-18.2162048983
 21
87.5851684491
 31
0.0
  0
LINE
  5
A1
330
1F
100
AcDbEntity
  8
0
  6
Continuous
 62
     1
370
    25
100
AcDbLine
 10
-18.0012407469
 20
127.5735819023
 30
0.0
 11
-18.0012407469
 21
87.596754102
 31
0.0
  0
LINE
  5
A2
330
1F
100
AcDbEntity
  8
0
  6
Continuous
 62
     1
370
    25
100
AcDbLine
 10
18.7844195647
 20
123.5967544149
 30
0.0
 11
18.7844195647
 21
91.5735815893
 31
0.0
  0
LINE
  5
A3
330
1F
100
AcDbEntity
  8
0
  6
Continuous
 62
     1
370
    25
100
AcDbLine
 10
18.9993837161
 20
123.5851687621
 30
0.0
 11
18.9993837161
 21
91.5851672422
 31
0.0
  0
LINE
  5
A4
330
1F
100
AcDbEntity
  8
0
  6
Continuous
 62
     7
370
    25
100
AcDbLine
 10
288.358275841
 20
87.5851684491
 30
0.0
 11
337.2504832848
 21
87.5851684491
 31
0.0
  0
LINE
  5
A5
330
1F
100
AcDbEntity
  8
0
  6
Continuous
 62
     7
370
    25
100
AcDbLine
 10
337.2504832848
 20
127.5851675551
 30
0.0
 11
288.358275841
 21
127.5851675551
 31
0.0
  0
ARC
  5
A6
330
1F
100
AcDbEntity
  8
0
  6
Continuous
 62
     7
370
    25
100
AcDbCircle
 10
288.3582754553
 20
89.5851680021
 30
0.0
 40
2.000000000000004
100
AcDbArc
 50
263.829824905
 51
270.0
  0
ARC
  5
A7
330
1F
100
AcDbEntity
  8
0
  6
Continuous
 62
     7
370
    25
100
AcDbCircle
 10
288.3582754553
 20
125.5851680021
 30
0.0
 40
2.000000000000004
100
AcDbArc
 50
90.0
 51
96.170175095
  0
LINE
  5
A8
330
1F
100
AcDbEntity
  8
0
  6
Continuous
 62
     7
370
    25
100
AcDbLine
 10
288.1433116897
 20
127.5735819023
 30
0.0
 11
251.3576513781
 21
123.5967544149
 31
0.0
  0
LINE
  5
A9
330
1F
100
AcDbEntity
  8
0
  6
Continuous
 62
     7
370
    25
100
AcDbLine
 10
251.3576513781
 20
91.5735815893
 30
0.0
 11
288.1433116897
 21
87.596754102
 31
0.0
  0
ARC
  5
AA
330
1F
100
AcDbEntity
  8
0
  6
Continuous
 62
     7
370
    25
100
AcDbCircle
 10
251.1426873234
 20
89.5851680021
 30
0.0
 40
2.000000000000014
100
AcDbArc
 50
83.829824905
 51
90.0
  0
ARC
  5
AB
330
1F
100
AcDbEntity
  8
0
  6
Continuous
 62
     7
370
    25
100
AcDbCircle
 10
251.1426873234
 20
125.5851680021
 30
0.0
 40
2.000000000000004
100
AcDbArc
 50
270.0
 51
276.170175095
  0
LINE
  5
AC
330
1F
100
AcDbEntity
  8
0
  6
Continuous
 62
     7
370
    25
100
AcDbLine
 10
207.2504806026
 20
91.5851672422
 30
0.0
 11
251.1426872267
 21
91.5851672422
 31
0.0
  0
LINE
  5
AD
330
1F
100
AcDbEntity
  8
0
  6
Continuous
 62
     7
370
    25
100
AcDbLine
 10
251.1426872267
 20
123.5851687621
 30
0.0
 11
207.2504806026
 21
123.5851687621
 31
0.0
  0
LINE
  5
AE
330
1F
100
AcDbEntity
  8
0
  6
Continuous
 62
     7
370
    25
100
AcDbLine
 10
337.2504832848
 20
107.5851680021
 30
0.0
 11
337.2504832848
 21
127.5851675551
 31
0.0
  0
LINE
  5
AF
330
1F
100
AcDbEntity
  8
0
  6
Continuous
 62
     7
370
    25
100
AcDbLine
 10
337.2504832848
 20
87.5851684491
 30
0.0
 11
337.2504832848
 21
107.5851680021
 31
0.0
  0
LINE
  5
B0
330
1F
100
AcDbEntity
  8
0
  6
Continuous
 62
     7
370
    25
100
AcDbLine
 10
207.2504806026
 20
107.5851680021
 30
0.0
 11
207.2504806026
 21
123.5851687621
 31
0.0
  0
LINE
  5
B1
330
1F
100
AcDbEntity
  8
0
  6
Continuous
 62
     7
370
    25
100
AcDbLine
 10
207.2504806026
 20
91.5851672422
 30
0.0
 11
207.2504806026
 21
107.5851680021
 31
0.0
  0
LINE
  5
B2
330
1F
100
AcDbEntity
  8
0
  6
Continuous
 62
     1
370
    25
100
AcDbLine
 10
288.358275841
 20
107.5851680021
 30
0.0
 11
288.358275841
 21
127.5851675551
 31
0.0
  0
LINE
  5
B3
330
1F
100
AcDbEntity
  8
0
  6
Continuous
 62
     1
370
    25
100
AcDbLine
 10
288.358275841
 20
87.5851684491
 30
0.0
 11
288.358275841
 21
107.5851680021
 31
0.0
  0
LINE
  5
B4
330
1F
100
AcDbEntity
  8
0
  6
Continuous
 62
     1
370
    25
100
AcDbLine
 10
288.1433116897
 20
107.5851680021
 30
0.0
 11
288.1433116897
 21
127.5735819023
 31
0.0
  0
LINE
  5
B5
330
1F
100
AcDbEntity
  8
0
  6
Continuous
 62
     1
370
    25
100
AcDbLine
 10
288.1433116897
 20
87.596754102
 30
0.0
 11
288.1433116897
 21
107.5851680021
 31
0.0
  0
LINE
  5
B6
330
1F
100
AcDbEntity
  8
0
  6
Continuous
 62
     1
370
    25
100
AcDbLine
 10
251.3576513781
 20
107.5851680021
 30
0.0
 11
251.3576513781
 21
123.5967544149
 31
0.0
  0
LINE
  5
B7
330
1F
100
AcDbEntity
  8
0
  6
Continuous
 62
     1
370
    25
100
AcDbLine
 10
251.3576513781
 20
91.5735815893
 30
0.0
 11
251.3576513781
 21
107.5851680021
 31
0.0
  0
LINE
  5
B8
330
1F
100
AcDbEntity
  8
0
  6
Continuous
 62
     1
370
    25
100
AcDbLine
 10
251.1426872267
 20
107.5851680021
 30
0.0
 11
251.1426872267
 21
123.5851687621
 31
0.0
  0
LINE
  5
B9
330
1F
100
AcDbEntity
  8
0
  6
Continuous
 62
     1
370
    25
100
AcDbLine
 10
251.1426872267
 20
91.5851672422
 30
0.0
 11
251.1426872267
 21
107.5851680021
 31
0.0
  0
LINE
  5
BA
330
1F
100
AcDbEntity
  8
0
  6
Continuous
 62
     7
370
    25
100
AcDbLine
 10
159.395003646
 20
251.7273640093
 30
0.0
 11
159.395003646
 21
300.619571453
 31
0.0
  0
LINE
  5
BB
330
1F
100
AcDbEntity
  8
0
  6
Continuous
 62
     7
370
    25
100
AcDbLine
 10
119.3950045401
 20
300.619571453
 30
0.0
 11
119.3950045401
 21
251.7273640093
 31
0.0
  0
ARC
  5
BC
330
1F
100
AcDbEntity
  8
0
  6
Continuous
 62
     7
370
    25
100
AcDbCircle
 10
157.395004093
 20
251.7273636235
 30
0.0
 40
2.0
100
AcDbArc
 50
353.829824905
 51
0.0
  0
ARC
  5
BD
330
1F
100
AcDbEntity
  8
0
  6
Continuous
 62
     7
370
    25
100
AcDbCircle
 10
121.395004093
 20
251.7273636235
 30
0.0
 40
2.000000000000004
100
AcDbArc
 50
180.0
 51
186.170175095
  0
LINE
  5
BE
330
1F
100
AcDbEntity
  8
0
  6
Continuous
 62
     7
370
    25
100
AcDbLine
 10
119.4065901929
 20
251.5123998579
 30
0.0
 11
123.3834176803
 21
214.7267395463
 31
0.0
  0
LINE
  5
BF
330
1F
100
AcDbEntity
  8
0
  6
Continuous
 62
     7
370
    25
100
AcDbLine
 10
155.4065905058
 20
214.7267395463
 30
0.0
 11
159.3834179932
 21
251.5123998579
 31
0.0
  0
ARC
  5
C0
330
1F
100
AcDbEntity
  8
0
  6
Continuous
 62
     7
370
    25
100
AcDbCircle
 10
157.395004093
 20
214.5117754916
 30
0.0
 40
2.000000000000028
100
AcDbArc
 50
173.829824905
 51
180.0
  0
ARC
  5
C1
330
1F
100
AcDbEntity
  8
0
  6
Continuous
 62
     7
370
    25
100
AcDbCircle
 10
121.395004093
 20
214.5117754916
 30
0.0
 40
2.0
100
AcDbArc
 50
0.0
 51
6.170175095
  0
LINE
  5
C2
330
1F
100
AcDbEntity
  8
0
  6
Continuous
 62
     7
370
    25
100
AcDbLine
 10
155.395004853
 20
170.6195687708
 30
0.0
 11
155.395004853
 21
214.5117753949
 31
0.0
  0
LINE
  5
C3
330
1F
100
AcDbEntity
  8
0
  6
Continuous
 62
     7
370
    25
100
AcDbLine
 10
123.3950033331
 20
214.5117753949
 30
0.0
 11
123.3950033331
 21
170.6195687708
 31
0.0
  0
LINE
  5
C4
330
1F
100
AcDbEntity
  8
0
  6
Continuous
 62
     7
370
    25
100
AcDbLine
 10
159.395003646
 20
300.619571453
 30
0.0
 11
119.3950045401
 21
300.619571453
 31
0.0
  0
LINE
  5
C5
330
1F
100
AcDbEntity
  8
0
  6
Continuous
 62
     7
370
    25
100
AcDbLine
 10
155.395004853
 20
170.6195687708
 30
0.0
 11
123.3950033331
 21
170.6195687708
 31
0.0
  0
LINE
  5
C6
330
1F
100
AcDbEntity
  8
0
  6
Continuous
 62
     1
370
    25
100
AcDbLine
 10
159.395003646
 20
251.7273640093
 30
0.0
 11
119.3950045401
 21
251.7273640093
 31
0.0
  0
LINE
  5
C7
330
1F
100
AcDbEntity
  8
0
  6
Continuous
 62
     1
370
    25
100
AcDbLine
 10
159.3834179932
 20
251.5123998579
 30
0.0
 11
119.4065901929
 21
251.5123998579
 31
0.0
  0
LINE
  5
C8
330
1F
100
AcDbEntity
  8
0
  6
Continuous
 62
     1
370
    25
100
AcDbLine
 10
155.4065905058
 20
214.7267395463
 30
0.0
 11
123.3834176803
 21
214.7267395463
 31
0.0
  0
LINE
  5
C9
330
1F
100
AcDbEntity
  8
0
  6
Continuous
 62
     1
370
    25
100
AcDbLine
 10
155.395004853
 20
214.5117753949
 30
0.0
 11
123.3950033331
 21
214.5117753949
 31
0.0
  0
LINE
  5
CA
330
1F
100
AcDbEntity
  8
0
  6
Continuous
 62
     7
370
    25
100
AcDbLine
 10
119.3950045401
 20
-47.3963713428
 30
0.0
 11
119.3950045401
 21
-96.2885787866
 31
0.0
  0
LINE
  5
CB
330
1F
100
AcDbEntity
  8
0
  6
Continuous
 62
     7
370
    25
100
AcDbLine
 10
159.395003646
 20
-96.2885787866
 30
0.0
 11
159.395003646
 21
-47.3963713428
 31
0.0
  0
ARC
  5
CC
330
1F
100
AcDbEntity
  8
0
  6
Continuous
 62
     7
370
    25
100
AcDbCircle
 10
121.395004093
 20
-47.3963709571
 30
0.0
 40
2.000000000000004
100
AcDbArc
 50
173.829824905
 51
180.0
  0
ARC
  5
CD
330
1F
100
AcDbEntity
  8
0
  6
Continuous
 62
     7
370
    25
100
AcDbCircle
 10
157.395004093
 20
-47.3963709571
 30
0.0
 40
2.0
100
AcDbArc
 50
0.0
 51
6.170175095
  0
LINE
  5
CE
330
1F
100
AcDbEntity
  8
0
  6
Continuous
 62
     7
370
    25
100
AcDbLine
 10
159.3834179932
 20
-47.1814071915
 30
0.0
 11
155.4065905058
 21
-10.3957468799
 31
0.0
  0
LINE
  5
CF
330
1F
100
AcDbEntity
  8
0
  6
Continuous
 62
     7
370
    25
100
AcDbLine
 10
123.3834176803
 20
-10.3957468799
 30
0.0
 11
119.4065901929
 21
-47.1814071915
 31
0.0
  0
ARC
  5
D0
330
1F
100
AcDbEntity
  8
0
  6
Continuous
 62
     7
370
    25
100
AcDbCircle
 10
121.395004093
 20
-10.1807828252
 30
0.0
 40
2.000000000000004
100
AcDbArc
 50
353.829824905
 51
0.0
  0
ARC
  5
D1
330
1F
100
AcDbEntity
  8
0
  6
Continuous
 62
     7
370
    25
100
AcDbCircle
 10
157.395004093
 20
-10.1807828252
 30
0.0
 40
2.000000000000028
100
AcDbArc
 50
180.0
 51
186.170175095
  0
LINE
  5
D2
330
1F
100
AcDbEntity
  8
0
  6
Continuous
 62
     7
370
    25
100
AcDbLine
 10
123.3950033331
 20
33.7114238957
 30
0.0
 11
123.3950033331
 21
-10.1807827285
 31
0.0
  0
LINE
  5
D3
330
1F
100
AcDbEntity
  8
0
  6
Continuous
 62
     7
370
    25
100
AcDbLine
 10
155.395004853
 20
-10.1807827285
 30
0.0
 11
155.395004853
 21
33.7114238957
 31
0.0
  0
LINE
  5
D4
330
1F
100
AcDbEntity
  8
0
  6
Continuous
 62
     7
370
    25
100
AcDbLine
 10
119.3950045401
 20
-96.2885787866
 30
0.0
 11
159.395003646
 21
-96.2885787866
 31
0.0
  0
LINE
  5
D5
330
1F
100
AcDbEntity
  8
0
  6
Continuous
 62
     7
370
    25
100
AcDbLine
 10
123.3950033331
 20
33.7114238957
 30
0.0
 11
155.395004853
 21
33.7114238957
 31
0.0
  0
LINE
  5
D6
330
1F
100
AcDbEntity
  8
0
  6
Continuous
 62
     1
370
    25
100
AcDbLine
 10
119.3950045401
 20
-47.3963713428
 30
0.0
 11
159.395003646
 21
-47.3963713428
 31
0.0
  0
LINE
  5
D7
330
1F
100
AcDbEntity
  8
0
  6
Continuous
 62
     1
370
    25
100
AcDbLine
 10
119.4065901929
 20
-47.1814071915
 30
0.0
 11
159.3834179932
 21
-47.1814071915
 31
0.0
  0
LINE
  5
D8
330
1F
100
AcDbEntity
  8
0
  6
Continuous
 62
     1
370
    25
100
AcDbLine
 10
123.3834176803
 20
-10.3957468799
 30
0.0
 11
155.4065905058
 21
-10.3957468799
 31
0.0
  0
LINE
  5
D9
330
1F
100
AcDbEntity
  8
0
  6
Continuous
 62
     1
370
    25
100
AcDbLine
 10
123.3950033331
 20
-10.1807827285
 30
0.0
 11
155.395004853
 21
-10.1807827285
 31
0.0
  0
LINE
  5
DA
330
1F
100
AcDbEntity
  8
0
  6
Continuous
 62
     7
370
    25
100
AcDbLine
 10
273.1899744045
 20
3.7333098151
 30
0.0
 11
238.6179629739
 21
23.6913071961
 31
0.0
  0
LINE
  5
DB
330
1F
100
AcDbEntity
  8
0
  6
Continuous
 62
     7
370
    25
100
AcDbLine
 10
218.6195889201
 20
-10.950646277
 30
0.0
 11
253.1916003507
 21
-30.908643658
 31
0.0
  0
SPLINE
  5
DC
330
1F
100
AcDbEntity
  8
0
  6
Continuous
 62
     7
370
    25
100
AcDbSpline
210
0.0
220
0.0
230
1.0
 70
     8
 71
     3
 72
     9
 73
     5
 74
     0
 42
0.000000001
 43
0.00000001
 40
0.0
 40
0.0
 40
0.0
 40
0.0
 40
0.5607380411600865
 40
0.9999999999999999
 40
0.9999999999999999
 40
0.9999999999999999
 40
0.9999999999999999
 10
274.0645616823328
 20
3.137068093120251
 30
0.0
 10
273.9084414049622
 20
3.259112755057872
 30
0.0
 10
273.6300221326625
 20
3.476762803706474
 30
0.0
 10
273.3218956022268
 20
3.647684109788853
 30
0.0
 10
273.1865473388972
 20
3.722763337506079
 30
0.0
  0
SPLINE
  5
DD
330
1F
100
AcDbEntity
  8
0
  6
Continuous
 62
     7
370
    25
100
AcDbSpline
210
0.0
220
0.0
230
1.0
 70
     8
 71
     3
 72
     9
 73
     5
 74
     0
 42
0.000000001
 43
0.00000001
 40
0.0
 40
0.0
 40
0.0
 40
0.0
 40
0.4087819784623286
 40
0.9999999999999999
 40
0.9999999999999999
 40
0.9999999999999999
 40
0.9999999999999999
 10
253.1965848741302
 20
-30.89887637589981
 30
0.0
 10
253.3203819945356
 20
-30.97360595003383
 30
0.0
 10
253.6232258744714
 20
-31.15641629410799
 30
0.0
 10
253.9518125759811
 20
-31.29026530776497
 30
0.0
 10
254.1460789555512
 20
-31.36939925680402
 30
0.0
  0
LINE
  5
DE
330
1F
100
AcDbEntity
  8
0
  6
Continuous
 62
     7
370
    25
100
AcDbLine
 10
254.142763184
 20
-31.3768145399
 30
0.0
 11
281.9845597199
 21
-42.8710596724
 31
0.0
  0
LINE
  5
DF
330
1F
100
AcDbEntity
  8
0
  6
Continuous
 62
     7
370
    25
100
AcDbLine
 10
297.9479887679
 20
-15.2185925952
 30
0.0
 11
274.071059541
 21
3.143747114
 31
0.0
  0
LINE
  5
E0
330
1F
100
AcDbEntity
  8
0
  6
Continuous
 62
     7
370
    25
100
AcDbLine
 10
328.5420094145
 20
-32.8394161344
 30
0.0
 11
297.7355844565
 21
-15.0552455528
 31
0.0
  0
LINE
  5
E1
330
1F
100
AcDbEntity
  8
0
  6
Continuous
 62
     7
370
    25
100
AcDbLine
 10
281.7368844232
 20
-42.7688090917
 30
0.0
 11
312.5433093812
 21
-60.5529796732
 31
0.0
  0
LWPOLYLINE
  5
E2
330
1F
100
AcDbEntity
  8
0
  6
Continuous
 62
     7
370
    25
100
AcDbPolyline
 90
       91
 70
   128
 43
0.0
 10
214.4766406394
 20
-1.7937504762
 10
214.5110904197
 20
-0.6346828812
 10
214.6142711732
 20
0.5585122117
 10
214.7856797719
 20
1.7800215864
 10
215.0244824985
 20
3.0238947939
 10
215.3295150462
 20
4.2840714344
 10
215.6992917387
 20
5.5544124305
 10
216.1320107982
 20
6.8287281636
 10
216.6255648822
 20
8.1008115529
 10
217.1775476692
 20
9.3644627704
 10
217.785271639
 20
10.6135280223
 10
218.4457746583
 20
11.8419200811
 10
219.1558403959
 20
13.0436559265
 10
219.9120075417
 20
14.2128787982
 10
220.7105941735
 20
15.3438943153
 10
221.5477082932
 20
16.4311917684
 10
222.4192715346
 20
17.4694737755
 10
223.3210385906
 20
18.4536811851
 10
224.2486156523
 20
19.3790204515
 10
225.1974837872
 20
20.2409816934
 10
226.1630198482
 20
21.0353674942
 10
227.1405201811
 20
21.7583065888
 10
228.1252225215
 20
22.4062756289
 10
229.1123293725
 20
22.9761202845
 10
230.0970317129
 20
23.4650643667
 10
231.0745320458
 20
23.8707231337
 10
232.0400681068
 20
24.19112154
 10
232.9889362417
 20
24.4247001275
 10
233.9165133034
 20
24.5703185405
 10
234.8182803594
 20
24.627269212
 10
235.6898436008
 20
24.5952727042
 10
236.5269577205
 20
24.4744866409
 10
237.3255443523
 20
24.2654996229
 10
238.0817114981
 20
23.9693287544
 10
238.7917772357
 20
23.5874173591
 10
239.452280255
 20
23.121625854
 10
240.0600042248
 20
22.5742237623
 10
240.6119870118
 20
21.9478783052
 10
241.1055410958
 20
21.2456403318
 10
241.5382601553
 20
20.4709313904
 10
241.9080368478
 20
19.6275254758
 10
242.2130693955
 20
18.7195319185
 10
242.4518721221
 20
17.7513744703
 10
242.6232807208
 20
16.7277692513
 10
242.7264614743
 20
15.6537041206
 10
242.7609112546
 20
14.5344113953
 10
242.7264614743
 20
13.3753438003
 10
242.6232807208
 20
12.1821487073
 10
242.4518721221
 20
10.9606393327
 10
242.2130693955
 20
9.7167661252
 10
241.9080368478
 20
8.4565894847
 10
241.5382601553
 20
7.1862484886
 10
241.1055410958
 20
5.9119327555
 10
240.6119870118
 20
4.6398493662
 10
240.0600042248
 20
3.3761981487
 10
239.452280255
 20
2.1271328968
 10
238.7917772357
 20
0.898740838
 10
238.0817114981
 20
-0.3029950075
 10
237.3255443523
 20
-1.4722178792
 10
236.5269577205
 20
-2.6032333962
 10
235.6898436008
 20
-3.6905308493
 10
234.8182803594
 20
-4.7288128564
 10
233.9165133034
 20
-5.713020266
 10
232.9889362417
 20
-6.6383595324
 10
232.0400681068
 20
-7.5003207743
 10
231.0745320458
 20
-8.2947065752
 10
230.0970317129
 20
-9.0176456697
 10
229.1123293725
 20
-9.6656147098
 10
228.1252225215
 20
-10.2354593654
 10
227.1405201811
 20
-10.7244034476
 10
226.1630198482
 20
-11.1300622146
 10
225.1974837872
 20
-11.450460621
 10
224.2486156523
 20
-11.6840392084
 10
223.3210385906
 20
-11.8296576214
 10
222.4192715346
 20
-11.886608293
 10
221.5477082932
 20
-11.8546117851
 10
220.7105941735
 20
-11.7338257218
 10
219.9120075417
 20
-11.5248387038
 10
219.1558403959
 20
-11.2286678353
 10
218.4457746583
 20
-10.84675644
 10
217.785271639
 20
-10.3809649349
 10
217.1775476692
 20
-9.8335628432
 10
216.6255648822
 20
-9.2072173861
 10
216.1320107982
 20
-8.5049794127
 10
215.6992917387
 20
-7.7302704713
 10
215.3295150462
 20
-6.8868645568
 10
215.0244824985
 20
-5.9788709994
 10
214.7856797719
 20
-5.0107135513
 10
214.6142711732
 20
-3.9871083322
 10
214.5110904197
 20
-2.9130432015
 10
214.4766406394
 20
-1.7937504762
  0
LWPOLYLINE
  5
E3
330
1F
100
AcDbEntity
  8
0
  6
Continuous
 62
     7
370
    25
100
AcDbPolyline
 90
       82
 70
   128
 43
0.0
 10
217.0929352366
 20
-0.283395754
 10
217.1275944341
 20
0.7680069111
 10
217.2313626093
 20
1.8531024341
 10
217.4036154621
 20
2.9653645811
 10
217.643318419
 20
4.0981051781
 10
217.9490292676
 20
5.2445115635
 10
218.318908693
 20
6.3976880323
 10
218.7507327905
 20
7.5507001322
 10
219.2419042605
 20
8.6966130654
 10
219.7894695309
 20
9.8285357945
 10
220.3901358792
 20
10.9396609646
 10
221.0402892131
 20
12.0233052064
 10
221.7360210709
 20
13.0729513395
 10
222.4731464023
 20
14.0822875344
 10
223.2472325442
 20
15.045243812
 10
224.0536235869
 20
15.9560274028
 10
224.8874700088
 20
16.8091611476
 10
225.7437569932
 20
17.5995158147
 10
226.6173347223
 20
18.3223359522
 10
227.5029493279
 20
18.9732752474
 10
228.3952745432
 20
19.5484178398
 10
229.2889439713
 20
20.044308357
 10
230.1785829013
 20
20.4579596346
 10
231.0588410705
 20
20.7868883603
 10
231.9244243985
 20
21.0291128606
 10
232.7701269264
 20
21.1831776227
 10
233.5908630442
 20
21.2481566899
 10
234.3816963022
 20
21.2236581265
 10
235.137870692
 20
21.1098306691
 10
235.8548386346
 20
20.9073578302
 10
236.5282873219
 20
20.6174571353
 10
237.1541680222
 20
20.2418734662
 10
237.7287158368
 20
19.7828646103
 10
238.2484753824
 20
19.2431909918
 10
238.7103205484
 20
18.6260981795
 10
239.1114742525
 20
17.935297873
 10
239.4495229292
 20
17.1749439473
 10
239.7224356271
 20
16.3496111574
 10
239.9285679606
 20
15.4642605372
 10
240.0666831832
 20
14.5242186749
 10
240.1359488945
 20
13.5351381695
 10
240.1359488945
 20
12.5029675907
 10
240.0666831832
 20
11.4339145972
 10
239.9285679606
 20
10.3344082933
 10
239.7224356271
 20
9.2110623467
 10
239.4495229292
 20
8.0706312628
 10
239.1114742525
 20
6.9199746428
 10
238.7103205484
 20
5.7660121283
 10
238.2484753824
 20
4.6156842376
 10
237.7287158368
 20
3.4759090212
 10
237.1541680222
 20
2.3535413786
 10
236.5282873219
 20
1.2553312344
 10
235.8548386346
 20
0.1878832357
 10
235.137870692
 20
-0.8423831696
 10
234.3816963022
 20
-1.8292709939
 10
233.5908630442
 20
-2.7668462016
 10
232.7701269264
 20
-3.6494688857
 10
231.9244243985
 20
-4.4718314784
 10
231.0588410705
 20
-5.2289882163
 10
230.1785829013
 20
-5.9163839396
 10
229.2889439713
 20
-6.5298879069
 10
228.3952745432
 20
-7.0658061488
 10
227.5029493279
 20
-7.5209203203
 10
226.6173347223
 20
-7.8924898841
 10
225.7437569932
 20
-8.1782811236
 10
224.8874700088
 20
-8.3765743649
 10
224.0536235869
 20
-8.4861792062
 10
223.2472325442
 20
-8.5064348956
 10
222.4731464023
 20
-8.4372194537
 10
221.7360210709
 20
-8.278950051
 10
221.0402892131
 20
-8.0325788227
 10
220.3901358792
 20
-7.6995856421
 10
219.7894695309
 20
-7.2819750759
 10
219.2419042605
 20
-6.7822577512
 10
218.7507327905
 20
-6.2034393262
 10
218.318908693
 20
-5.5490007169
 10
217.9490292676
 20
-4.8228779426
 10
217.643318419
 20
-4.0294377899
 10
217.4036154621
 20
-3.1734523361
 10
217.2313626093
 20
-2.2600690996
 10
217.1275944341
 20
-1.2947817615
 10
217.0929352366
 20
-0.283395754
  0
LINE
  5
E4
330
1F
100
AcDbEntity
  8
0
  6
Continuous
 62
     7
370
    25
100
AcDbLine
 10
281.9845597199
 20
-42.8710596724
 30
0.0
 11
281.9558142522
 21
-42.8590956543
 31
0.0
  0
LWPOLYLINE
  5
E5
330
1F
100
AcDbEntity
  8
0
  6
Continuous
 62
     7
370
    25
100
AcDbPolyline
 90
       42
 70
   128
 43
0.0
 10
328.5420094145
 20
-32.8394161344
 10
328.5426593979
 20
-32.8397914838
 10
329.1456708232
 20
-33.2449713635
 10
329.6956417567
 20
-33.7330831095
 10
330.1891813527
 20
-34.3011168719
 10
330.6232477943
 20
-34.9455696732
 10
330.9951634394
 20
-35.6624693644
 10
331.3026358945
 20
-36.4473959201
 10
331.5437692101
 20
-37.2955097666
 10
331.7170770512
 20
-38.2015818218
 10
331.8214919171
 20
-39.1600256249
 10
331.8563684342
 20
-40.164932699
 10
331.8214919171
 20
-41.2101073427
 10
331.7170770512
 20
-42.289105984
 10
331.5437692101
 20
-43.3952750132
 10
331.3026358945
 20
-44.5217954599
 10
330.9951634394
 20
-45.6617221559
 10
330.6232477943
 20
-46.8080265108
 10
330.1891813527
 20
-47.9536417579
 10
329.6956417567
 20
-49.0915042088
 10
329.1456708232
 20
-50.2145988786
 10
328.5426593979
 20
-51.3160009304
 10
327.8903256232
 20
-52.3889205397
 10
327.1926905718
 20
-53.4267428172
 10
326.4540558564
 20
-54.4230688713
 10
325.6789756415
 20
-55.3717570607
 10
324.8722283262
 20
-56.2669568322
 10
324.0387875678
 20
-57.1031497833
 10
323.1837921537
 20
-57.8751799825
 10
322.3125134035
 20
-58.5782879969
 10
321.4303227354
 20
-59.2081402626
 10
320.5426593979
 20
-59.7608515145
 10
319.6549960603
 20
-60.2330145371
 10
318.7728053922
 20
-60.6217179362
 10
317.901526642
 20
-60.9245669543
 10
317.046531228
 20
-61.1396934481
 10
316.2130904695
 20
-61.2657707141
 10
315.4063431542
 20
-61.3020215664
 10
314.6312629394
 20
-61.2482219448
 10
313.892628224
 20
-61.1047053805
 10
313.1949931725
 20
-60.8723553885
 10
312.5433093812
 20
-60.5529796732
  0
LWPOLYLINE
  5
E6
330
1F
100
AcDbEntity
  8
0
  6
Continuous
 62
     1
370
    25
100
AcDbPolyline
 90
       47
 70
   128
 43
0.0
 10
273.1899744045
 20
3.7333098151
 10
273.3637886663
 20
3.6294199781
 10
274.0242916857
 20
3.163628473
 10
274.6320156554
 20
2.6162263813
 10
275.1839984424
 20
1.9898809242
 10
275.6775525264
 20
1.2876429508
 10
276.1102715859
 20
0.5129340094
 10
276.4800482784
 20
-0.3304719051
 10
276.7850808262
 20
-1.2384654625
 10
277.0238835527
 20
-2.2066229106
 10
277.1952921515
 20
-3.2302281297
 10
277.298472905
 20
-4.3042932604
 10
277.3329226853
 20
-5.4235859857
 10
277.298472905
 20
-6.5826535807
 10
277.1952921515
 20
-7.7758486736
 10
277.0238835527
 20
-8.9973580483
 10
276.7850808262
 20
-10.2412312557
 10
276.4800482784
 20
-11.5014078963
 10
276.1102715859
 20
-12.7717488924
 10
275.6775525264
 20
-14.0460646255
 10
275.1839984424
 20
-15.3181480148
 10
274.6320156554
 20
-16.5817992323
 10
274.0242916857
 20
-17.8308644842
 10
273.3637886663
 20
-19.059256543
 10
272.6537229288
 20
-20.2609923884
 10
271.8975557829
 20
-21.4302152601
 10
271.0989691511
 20
-22.5612307772
 10
270.2618550314
 20
-23.6485282303
 10
269.39029179
 20
-24.6868102374
 10
268.488524734
 20
-25.671017647
 10
267.5609476723
 20
-26.5963569134
 10
266.6120795375
 20
-27.4583181553
 10
265.6465434765
 20
-28.2527039561
 10
264.6690431435
 20
-28.9756430507
 10
263.6843408031
 20
-29.6236120908
 10
262.6972339521
 20
-30.1934567464
 10
261.7125316118
 20
-30.6824008286
 10
260.7350312788
 20
-31.0880595956
 10
259.7694952178
 20
-31.4084580019
 10
258.8206270829
 20
-31.6420365894
 10
257.8930500213
 20
-31.7876550024
 10
256.9912829653
 20
-31.8446056739
 10
256.1197197238
 20
-31.8126091661
 10
255.2826056041
 20
-31.6918231028
 10
254.4840189724
 20
-31.4828360848
 10
253.7278518265
 20
-31.1866652163
 10
253.1916003507
 20
-30.908643658
  0
LWPOLYLINE
  5
E7
330
1F
100
AcDbEntity
  8
0
  6
Continuous
 62
     1
370
    25
100
AcDbPolyline
 90
       45
 70
   128
 43
0.0
 10
274.070060529
 20
3.144514895
 10
274.1700183657
 20
3.066174796
 10
274.7773906727
 20
2.5190906108
 10
275.329053407
 20
1.8931071641
 10
275.8223216827
 20
1.1912768256
 10
276.2547891782
 20
0.4170158204
 10
276.6243525023
 20
-0.4259007162
 10
276.9292085601
 20
-1.3333683969
 10
277.1678729923
 20
-2.3009649907
 10
277.3391828094
 20
-3.3239768493
 10
277.4423029768
 20
-4.3974202959
 10
277.4767330007
 20
-5.5160645346
 10
277.4423029768
 20
-6.6744608329
 10
277.3391828094
 20
-7.8669642905
 10
277.1678729923
 20
-9.0877662538
 10
276.9292085601
 20
-10.3309189357
 10
276.6243525023
 20
-11.5903659286
 10
276.2547891782
 20
-12.8599711969
 10
275.8223216827
 20
-14.1335485441
 10
275.329053407
 20
-15.4048943113
 10
274.7773906727
 20
-16.6678139935
 10
274.1700183657
 20
-17.9161553177
 10
273.5098979607
 20
-19.1438359994
 10
272.8002438134
 20
-20.3448756797
 10
272.0445145997
 20
-21.5134221607
 10
271.2463909247
 20
-22.6437810615
 10
270.4097614938
 20
-23.7304488968
 10
269.5387026974
 20
-24.7681294251
 10
268.6374581965
 20
-25.7517674871
 10
267.7104185071
 20
-26.6765699172
 10
266.7621002569
 20
-27.5380327272
 10
265.7971234649
 20
-28.3319572648
 10
264.8201893155
 20
-29.054476732
 10
263.8360574805
 20
-29.7020723195
 10
262.8495224931
 20
-30.2715868453
 10
261.8653906581
 20
-30.7602456886
 10
260.8884565087
 20
-31.1656703813
 10
259.9234797166
 20
-31.4858843327
 10
258.9751614664
 20
-31.7193264687
 10
258.0481217771
 20
-31.8648612812
 10
257.1468772762
 20
-31.9217779711
 10
256.2758184798
 20
-31.8898005221
 10
255.4391890489
 20
-31.7690844669
 10
254.6410653739
 20
-31.5602195467
 10
254.1428316726
 20
-31.3768434439
  0
LWPOLYLINE
  5
E8
330
1F
100
AcDbEntity
  8
0
  6
Continuous
 62
     1
370
    25
100
AcDbPolyline
 90
       41
 70
   128
 43
0.0
 10
297.9479887679
 20
-15.2185925952
 10
297.9634210999
 20
-15.2305051735
 10
298.5137904528
 20
-15.718970192
 10
299.0076876386
 20
-16.2874150181
 10
299.4420675473
 20
-16.9323351532
 10
299.814252537
 20
-17.6497538856
 10
300.1219475802
 20
-18.435248528
 10
300.3632560687
 20
-19.2839762746
 10
300.5366896917
 20
-20.1907044309
 10
300.6411796317
 20
-21.1498425437
 10
300.6760811736
 20
-22.1554773832
 10
300.6411796317
 20
-23.2014086851
 10
300.5366896917
 20
-24.2811883147
 10
300.3632560687
 20
-25.3881586699
 10
300.1219475802
 20
-26.515495267
 10
299.814252537
 20
-27.6562470444
 10
299.4420675473
 20
-28.8033814192
 10
299.0076876386
 20
-29.9498259217
 10
298.5137904528
 20
-31.0885123005
 10
297.9634210999
 20
-32.2124202481
 10
297.3599730596
 20
-33.3146203646
 10
296.7071664499
 20
-34.3883171227
 10
296.0090262949
 20
-35.4268910703
 10
295.2698568413
 20
-36.4239387536
 10
294.4942152173
 20
-37.3733130179
 10
293.686883773
 20
-38.2691610293
 10
292.8528397878
 20
-39.1059592522
 10
291.9972251773
 20
-39.878549189
 10
291.1253153768
 20
-40.5821667494
 10
290.2424859205
 20
-41.2124744724
 10
289.3541798435
 20
-41.7655856676
 10
288.4658737665
 20
-42.2380908381
 10
287.5830443103
 20
-42.627076309
 10
286.7111345098
 20
-42.9301443763
 10
285.8555198993
 20
-43.1454260414
 10
285.0214759141
 20
-43.2715945064
 10
284.2141444698
 20
-43.3078715398
 10
283.4385028457
 20
-43.2540340325
 10
282.6993333922
 20
-43.1104132347
 10
282.0011932371
 20
-42.8778947527
 10
281.9845597199
 20
-42.8710596724
  0
LWPOLYLINE
  5
E9
330
1F
100
AcDbEntity
  8
0
  6
Continuous
 62
     1
370
    25
100
AcDbPolyline
 90
       41
 70
   128
 43
0.0
 10
297.8064471383
 20
-15.1097418565
 10
298.109193878
 20
-15.3279945966
 10
298.6591648115
 20
-15.8161063426
 10
299.1527044076
 20
-16.384140105
 10
299.5867708491
 20
-17.0285929063
 10
299.9586864942
 20
-17.7454925975
 10
300.2661589493
 20
-18.5304191532
 10
300.5072922649
 20
-19.3785329998
 10
300.680600106
 20
-20.2846050549
 10
300.7850149719
 20
-21.243048858
 10
300.819891489
 20
-22.2479559321
 10
300.7850149719
 20
-23.2931305759
 10
300.680600106
 20
-24.3721292171
 10
300.5072922649
 20
-25.4782982463
 10
300.2661589493
 20
-26.604818693
 10
299.9586864942
 20
-27.744745389
 10
299.5867708491
 20
-28.8910497439
 10
299.1527044076
 20
-30.036664991
 10
298.6591648115
 20
-31.1745274419
 10
298.109193878
 20
-32.2976221118
 10
297.5061824527
 20
-33.3990241635
 10
296.853848678
 20
-34.4719437728
 10
296.1562136266
 20
-35.5097660503
 10
295.4175789112
 20
-36.5060921044
 10
294.6424986963
 20
-37.4547802938
 10
293.835751381
 20
-38.3499800654
 10
293.0023106226
 20
-39.1861730165
 10
292.1473152085
 20
-39.9582032156
 10
291.2760364583
 20
-40.66131123
 10
290.3938457903
 20
-41.2911634957
 10
289.5061824527
 20
-41.8438747477
 10
288.6185191151
 20
-42.3160377702
 10
287.736328447
 20
-42.7047411693
 10
286.8650496968
 20
-43.0075901875
 10
286.0100542828
 20
-43.2227166812
 10
285.1766135244
 20
-43.3487939473
 10
284.369866209
 20
-43.3850447995
 10
283.5947859942
 20
-43.3312451779
 10
282.8561512788
 20
-43.1877286137
 10
282.1585162273
 20
-42.9553786216
 10
281.8195146368
 20
-42.8029219115
  0
ENDSEC
  0
SECTION
  2
OBJECTS
  0
DICTIONARY
  5
C
330
0
100
AcDbDictionary
281
     1
  3
ACAD_GROUP
350
D
  3
ACAD_LAYOUT
350
1A
  3
ACAD_MLINESTYLE
350
17
  3
ACAD_PLOTSETTINGS
350
19
  3
ACAD_PLOTSTYLENAME
350
E
  3
ACAD_SCALELIST
350
47
  0
DICTIONARY
  5
D
102
{ACAD_REACTORS
330
C
102
}
330
C
100
AcDbDictionary
281
     1
  0
DICTIONARY
  5
1A
102
{ACAD_REACTORS
330
C
102
}
330
C
100
AcDbDictionary
281
     1
  3
Layout1
350
1E
  3
Layout2
350
26
  3
Model
350
22
  0
DICTIONARY
  5
17
102
{ACAD_REACTORS
330
C
102
}
330
C
100
AcDbDictionary
281
     1
  3
Standard
350
18
  0
DICTIONARY
  5
19
102
{ACAD_REACTORS
330
C
102
}
330
C
100
AcDbDictionary
281
     1
  0
ACDBDICTIONARYWDFLT
  5
E
102
{ACAD_REACTORS
330
C
102
}
330
C
100
AcDbDictionary
281
     1
  3
Normal
350
F
100
AcDbDictionaryWithDefault
340
F
  0
DICTIONARY
  5
47
102
{ACAD_REACTORS
330
C
102
}
330
C
100
AcDbDictionary
281
     1
  3
A0
350
48
  3
A1
350
49
  3
A2
350
4A
  3
A3
350
4B
  3
A4
350
4C
  3
A5
350
4D
  3
A6
350
4E
  3
A7
350
4F
  3
A8
350
50
  3
A9
350
51
  3
B0
350
52
  3
B1
350
53
  3
B2
350
54
  3
B3
350
55
  3
B4
350
56
  3
B5
350
57
  3
B6
350
58
  3
B7
350
59
  3
B8
350
5A
  3
B9
350
5B
  3
C0
350
5C
  3
C1
350
5D
  3
C2
350
5E
  3
C3
350
5F
  3
C4
350
60
  3
C5
350
61
  3
C6
350
62
  3
C7
350
63
  3
C8
350
64
  3
C9
350
65
  3
D0
350
66
  3
D1
350
67
  3
D2
350
68
  0
LAYOUT
  5
1E
102
{ACAD_REACTORS
330
1A
102
}
330
1A
100
AcDbPlotSettings
  1

  2
none_device
  4

  6

 40
0.0
 41
0.0
 42
0.0
 43
0.0
 44
0.0
 45
0.0
 46
0.0
 47
0.0
 48
0.0
 49
0.0
140
0.0
141
0.0
142
1.0
143
1.0
 70
   688
 72
     1
 73
     0
 74
     5
  7

 75
    16
147
1.0
148
0.0
149
0.0
100
AcDbLayout
  1
Layout1
 70
     1
 71
     1
 10
0.0
 20
0.0
 11
420.0
 21
297.0
 12
0.0
 22
0.0
 32
0.0
 14
1.0000000000E+20
 24
1.0000000000E+20
 34
1.0000000000E+20
 15
-1.0000000000E+20
 25
-1.0000000000E+20
 35
-1.0000000000E+20
146
0.0
 13
0.0
 23
0.0
 33
0.0
 16
1.0
 26
0.0
 36
0.0
 17
0.0
 27
1.0
 37
0.0
 76
     0
330
1B
  0
LAYOUT
  5
26
102
{ACAD_REACTORS
330
1A
102
}
330
1A
100
AcDbPlotSettings
  1

  2
none_device
  4

  6

 40
0.0
 41
0.0
 42
0.0
 43
0.0
 44
0.0
 45
0.0
 46
0.0
 47
0.0
 48
0.0
 49
0.0
140
0.0
141
0.0
142
1.0
143
1.0
 70
   688
 72
     1
 73
     0
 74
     5
  7

 75
    16
147
1.0
148
0.0
149
0.0
100
AcDbLayout
  1
Layout2
 70
     1
 71
     2
 10
0.0
 20
0.0
 11
0.0
 21
0.0
 12
0.0
 22
0.0
 32
0.0
 14
0.0
 24
0.0
 34
0.0
 15
0.0
 25
0.0
 35
0.0
146
0.0
 13
0.0
 23
0.0
 33
0.0
 16
1.0
 26
0.0
 36
0.0
 17
0.0
 27
1.0
 37
0.0
 76
     0
330
23
  0
LAYOUT
  5
22
102
{ACAD_REACTORS
330
1A
102
}
330
1A
100
AcDbPlotSettings
  1

  2
none_device
  4
Letter_(8.50_x_11.00_Inches)
  6

 40
6.35
 41
6.35
 42
6.35000508
 43
6.35000508
 44
215.9
 45
279.4
 46
0.0
 47
0.0
 48
0.0
 49
0.0
140
0.0
141
0.0
142
1.0
143
1.0
 70
  1712
 72
     1
 73
     0
 74
     0
  7

 75
     0
147
1.0
148
0.0
149
0.0
100
AcDbLayout
  1
Model
 70
     1
 71
     0
 10
0.0
 20
0.0
 11
279.4
 21
215.9
 12
0.0
 22
0.0
 32
0.0
 14
0.0
 24
0.0
 34
0.0
 15
279.4
 25
215.9
 35
0.0
146
0.0
 13
0.0
 23
0.0
 33
0.0
 16
1.0
 26
0.0
 36
0.0
 17
0.0
 27
1.0
 37
0.0
 76
     0
330
1F
331
29
  0
MLINESTYLE
  5
18
102
{ACAD_REACTORS
330
17
102
}
330
17
100
AcDbMlineStyle
  2
Standard
 70
     0
  3

 62
   256
 51
90.0
 52
90.0
 71
     2
 49
0.5
 62
   256
  6
BYLAYER
 49
-0.5
 62
   256
  6
BYLAYER
  0
ACDBPLACEHOLDER
  5
F
102
{ACAD_REACTORS
330
E
102
}
330
E
  0
SCALE
  5
48
102
{ACAD_REACTORS
330
47
102
}
330
47
100
AcDbScale
 70
     0
300
1:1
140
1.0
141
1.0
290
     1
  0
SCALE
  5
49
102
{ACAD_REACTORS
330
47
102
}
330
47
100
AcDbScale
 70
     0
300
1:2
140
1.0
141
2.0
290
     0
  0
SCALE
  5
4A
102
{ACAD_REACTORS
330
47
102
}
330
47
100
AcDbScale
 70
     0
300
1:4
140
1.0
141
4.0
290
     0
  0
SCALE
  5
4B
102
{ACAD_REACTORS
330
47
102
}
330
47
100
AcDbScale
 70
     0
300
1:5
140
1.0
141
5.0
290
     0
  0
SCALE
  5
4C
102
{ACAD_REACTORS
330
47
102
}
330
47
100
AcDbScale
 70
     0
300
1:8
140
1.0
141
8.0
290
     0
  0
SCALE
  5
4D
102
{ACAD_REACTORS
330
47
102
}
330
47
100
AcDbScale
 70
     0
300
1:10
140
1.0
141
10.0
290
     0
  0
SCALE
  5
4E
102
{ACAD_REACTORS
330
47
102
}
330
47
100
AcDbScale
 70
     0
300
1:16
140
1.0
141
16.0
290
     0
  0
SCALE
  5
4F
102
{ACAD_REACTORS
330
47
102
}
330
47
100
AcDbScale
 70
     0
300
1:20
140
1.0
141
20.0
290
     0
  0
SCALE
  5
50
102
{ACAD_REACTORS
330
47
102
}
330
47
100
AcDbScale
 70
     0
300
1:30
140
1.0
141
30.0
290
     0
  0
SCALE
  5
51
102
{ACAD_REACTORS
330
47
102
}
330
47
100
AcDbScale
 70
     0
300
1:40
140
1.0
141
40.0
290
     0
  0
SCALE
  5
52
102
{ACAD_REACTORS
330
47
102
}
330
47
100
AcDbScale
 70
     0
300
1:50
140
1.0
141
50.0
290
     0
  0
SCALE
  5
53
102
{ACAD_REACTORS
330
47
102
}
330
47
100
AcDbScale
 70
     0
300
1:100
140
1.0
141
100.0
290
     0
  0
SCALE
  5
54
102
{ACAD_REACTORS
330
47
102
}
330
47
100
AcDbScale
 70
     0
300
2:1
140
2.0
141
1.0
290
     0
  0
SCALE
  5
55
102
{ACAD_REACTORS
330
47
102
}
330
47
100
AcDbScale
 70
     0
300
4:1
140
4.0
141
1.0
290
     0
  0
SCALE
  5
56
102
{ACAD_REACTORS
330
47
102
}
330
47
100
AcDbScale
 70
     0
300
8:1
140
8.0
141
1.0
290
     0
  0
SCALE
  5
57
102
{ACAD_REACTORS
330
47
102
}
330
47
100
AcDbScale
 70
     0
300
10:1
140
10.0
141
1.0
290
     0
  0
SCALE
  5
58
102
{ACAD_REACTORS
330
47
102
}
330
47
100
AcDbScale
 70
     0
300
100:1
140
100.0
141
1.0
290
     0
  0
SCALE
  5
59
102
{ACAD_REACTORS
330
47
102
}
330
47
100
AcDbScale
 70
     0
300
1/128" = 1'-0"
140
0.0078125
141
12.0
290
     0
  0
SCALE
  5
5A
102
{ACAD_REACTORS
330
47
102
}
330
47
100
AcDbScale
 70
     0
300
1/64" = 1'-0"
140
0.015625
141
12.0
290
     0
  0
SCALE
  5
5B
102
{ACAD_REACTORS
330
47
102
}
330
47
100
AcDbScale
 70
     0
300
1/32" = 1'-0"
140
0.03125
141
12.0
290
     0
  0
SCALE
  5
5C
102
{ACAD_REACTORS
330
47
102
}
330
47
100
AcDbScale
 70
     0
300
1/16" = 1'-0"
140
0.0625
141
12.0
290
     0
  0
SCALE
  5
5D
102
{ACAD_REACTORS
330
47
102
}
330
47
100
AcDbScale
 70
     0
300
3/32" = 1'-0"
140
0.09375
141
12.0
290
     0
  0
SCALE
  5
5E
102
{ACAD_REACTORS
330
47
102
}
330
47
100
AcDbScale
 70
     0
300
1/8" = 1'-0"
140
0.125
141
12.0
290
     0
  0
SCALE
  5
5F
102
{ACAD_REACTORS
330
47
102
}
330
47
100
AcDbScale
 70
     0
300
3/16" = 1'-0"
140
0.1875
141
12.0
290
     0
  0
SCALE
  5
60
102
{ACAD_REACTORS
330
47
102
}
330
47
100
AcDbScale
 70
     0
300
1/4" = 1'-0"
140
0.25
141
12.0
290
     0
  0
SCALE
  5
61
102
{ACAD_REACTORS
330
47
102
}
330
47
100
AcDbScale
 70
     0
300
3/8" = 1'-0"
140
0.375
141
12.0
290
     0
  0
SCALE
  5
62
102
{ACAD_REACTORS
330
47
102
}
330
47
100
AcDbScale
 70
     0
300
1/2" = 1'-0"
140
0.5
141
12.0
290
     0
  0
SCALE
  5
63
102
{ACAD_REACTORS
330
47
102
}
330
47
100
AcDbScale
 70
     0
300
3/4" = 1'-0"
140
0.75
141
12.0
290
     0
  0
SCALE
  5
64
102
{ACAD_REACTORS
330
47
102
}
330
47
100
AcDbScale
 70
     0
300
1" = 1'-0"
140
1.0
141
12.0
290
     0
  0
SCALE
  5
65
102
{ACAD_REACTORS
330
47
102
}
330
47
100
AcDbScale
 70
     0
300
1-1/2" = 1'-0"
140
1.5
141
12.0
290
     0
  0
SCALE
  5
66
102
{ACAD_REACTORS
330
47
102
}
330
47
100
AcDbScale
 70
     0
300
3" = 1'-0"
140
3.0
141
12.0
290
     0
  0
SCALE
  5
67
102
{ACAD_REACTORS
330
47
102
}
330
47
100
AcDbScale
 70
     0
300
6" = 1'-0"
140
6.0
141
12.0
290
     0
  0
SCALE
  5
68
102
{ACAD_REACTORS
330
47
102
}
330
47
100
AcDbScale
 70
     0
300
1'-0" = 1'-0"
140
12.0
141
12.0
290
     0
  0
ENDSEC
  0
EOF
